Feb 26, 2020, 07:44 am

Sooner Lead Tab

Started by LB, Jan 18, 2014, 02:25 pm

Previous topic - Next topic

LB

Well I've put this tab together from listening to the Acoustic Citsuoca Sooner as well as the Okonokos version. I'm not exactly good with the whole dashed line tab so y'all are free to play with it, but overall I feel that it is right  :thumbsup:

Let me know what you think/if I should make any changes!  :wink:

Standard Tuning

Beginning (X4)

e-------------------------------7--5--5--3--3-3-3-5--------------
B------5-5-5-----5-5-5--6---8--6--6--5--5-5-5-5---6---3--3
G------5-5-5-----5-5-5--7------------------------------7---4--4

OR

e-------------------------------7--5--5--3--3-3-3-5----------3----
B------5-5-5-----5-5-5--6---8--6--6--5--5-5-5-5---6---------3
G------5-5-5-----5-5-5--7------------------------------7---4-----

Now for the chorus:

CHORUS
e--------------17--15--13-13s/15-12--
B-15s/17---------------------------------
G------------------------------------------

e-----------------------------------------------------13----------------------
B-15s/17------13s/15--17--15--13-12s/13--------------------
G--------------------------------------------------------------14s/12---14s/12



OUTRO FROM LIVE PERFORMANCES
e-------8------8------8--------------13----------13----------13---------------------8--8--8-8----8--8--8-8
B---------8------8------------------------13----------13----------13---(X3)--------8--8--8-8----8--8--8-8
G-----9------9------9------12s/14----------14----------14-------------------------9--9--9-9----9--9--9-9


no you never gotta fight with me